ISO-10303-21;
HEADER;
/* Generated by software containing ST-Developer
 * from STEP Tools, Inc. (www.steptools.com) 
 */
/* OPTION: using custom renumber hook */

FILE_DESCRIPTION(
/* description */ ('STEP AP214'),
/* implementation_level */ '2;1');

FILE_NAME(
/* name */ '2GN10XS_Midgear',
/* time_stamp */ '2025-04-13T14:38:56+02:00',
/* author */ ('License CC BY-ND 4.0'),
/* organization */ ('CADENAS'),
/* preprocessor_version */ 'ST-DEVELOPER v19.3',
/* originating_system */ 'PARTsolutions',
/* authorisation */ '  ');

FILE_SCHEMA (('AUTOMOTIVE_DESIGN {1 0 10303 214 3 1 1}'));
ENDSEC;

DATA;
#10=PROPERTY_DEFINITION_REPRESENTATION(#14,#12);
#11=PROPERTY_DEFINITION_REPRESENTATION(#15,#13);
#12=REPRESENTATION('',(#16),#501);
#13=REPRESENTATION('',(#17),#501);
#14=PROPERTY_DEFINITION('pmi validation property','',#506);
#15=PROPERTY_DEFINITION('pmi validation property','',#506);
#16=VALUE_REPRESENTATION_ITEM('number of annotations',COUNT_MEASURE(0.));
#17=VALUE_REPRESENTATION_ITEM('number of views',COUNT_MEASURE(0.));
#18=SHAPE_REPRESENTATION_RELATIONSHIP('','',#301,#19);
#19=ADVANCED_BREP_SHAPE_REPRESENTATION('',(#299),#501);
#20=CIRCLE('',#305,5.7);
#21=CIRCLE('',#306,5.7);
#22=CIRCLE('',#309,5.7);
#23=CIRCLE('',#310,5.7);
#24=CIRCLE('',#313,5.7);
#25=CIRCLE('',#314,5.7);
#26=CIRCLE('',#317,2.25);
#27=CIRCLE('',#318,2.25);
#28=CIRCLE('',#320,2.25);
#29=CIRCLE('',#321,2.25);
#30=CIRCLE('',#323,2.25);
#31=CIRCLE('',#324,2.25);
#32=CIRCLE('',#326,2.25);
#33=CIRCLE('',#327,2.25);
#34=CIRCLE('',#329,5.7);
#35=CIRCLE('',#330,5.7);
#36=CIRCLE('',#332,27.);
#37=CIRCLE('',#335,27.);
#38=CYLINDRICAL_SURFACE('',#304,5.7);
#39=CYLINDRICAL_SURFACE('',#308,5.7);
#40=CYLINDRICAL_SURFACE('',#312,5.7);
#41=CYLINDRICAL_SURFACE('',#316,2.25);
#42=CYLINDRICAL_SURFACE('',#319,2.25);
#43=CYLINDRICAL_SURFACE('',#322,2.25);
#44=CYLINDRICAL_SURFACE('',#325,2.25);
#45=CYLINDRICAL_SURFACE('',#328,5.7);
#46=CYLINDRICAL_SURFACE('',#336,27.);
#47=ORIENTED_EDGE('',*,*,#115,.T.);
#48=ORIENTED_EDGE('',*,*,#116,.F.);
#49=ORIENTED_EDGE('',*,*,#117,.F.);
#50=ORIENTED_EDGE('',*,*,#118,.T.);
#51=ORIENTED_EDGE('',*,*,#119,.T.);
#52=ORIENTED_EDGE('',*,*,#120,.F.);
#53=ORIENTED_EDGE('',*,*,#121,.F.);
#54=ORIENTED_EDGE('',*,*,#116,.T.);
#55=ORIENTED_EDGE('',*,*,#122,.T.);
#56=ORIENTED_EDGE('',*,*,#123,.F.);
#57=ORIENTED_EDGE('',*,*,#124,.F.);
#58=ORIENTED_EDGE('',*,*,#120,.T.);
#59=ORIENTED_EDGE('',*,*,#125,.T.);
#60=ORIENTED_EDGE('',*,*,#126,.F.);
#61=ORIENTED_EDGE('',*,*,#127,.F.);
#62=ORIENTED_EDGE('',*,*,#123,.T.);
#63=ORIENTED_EDGE('',*,*,#128,.T.);
#64=ORIENTED_EDGE('',*,*,#129,.F.);
#65=ORIENTED_EDGE('',*,*,#130,.F.);
#66=ORIENTED_EDGE('',*,*,#126,.T.);
#67=ORIENTED_EDGE('',*,*,#131,.T.);
#68=ORIENTED_EDGE('',*,*,#132,.F.);
#69=ORIENTED_EDGE('',*,*,#133,.F.);
#70=ORIENTED_EDGE('',*,*,#129,.T.);
#71=ORIENTED_EDGE('',*,*,#134,.T.);
#72=ORIENTED_EDGE('',*,*,#135,.F.);
#73=ORIENTED_EDGE('',*,*,#136,.F.);
#74=ORIENTED_EDGE('',*,*,#132,.T.);
#75=ORIENTED_EDGE('',*,*,#137,.T.);
#76=ORIENTED_EDGE('',*,*,#138,.F.);
#77=ORIENTED_EDGE('',*,*,#139,.T.);
#78=ORIENTED_EDGE('',*,*,#140,.F.);
#79=ORIENTED_EDGE('',*,*,#141,.T.);
#80=ORIENTED_EDGE('',*,*,#142,.F.);
#81=ORIENTED_EDGE('',*,*,#143,.T.);
#82=ORIENTED_EDGE('',*,*,#144,.F.);
#83=ORIENTED_EDGE('',*,*,#145,.T.);
#84=ORIENTED_EDGE('',*,*,#118,.F.);
#85=ORIENTED_EDGE('',*,*,#146,.F.);
#86=ORIENTED_EDGE('',*,*,#135,.T.);
#87=ORIENTED_EDGE('',*,*,#147,.F.);
#88=ORIENTED_EDGE('',*,*,#143,.F.);
#89=ORIENTED_EDGE('',*,*,#141,.F.);
#90=ORIENTED_EDGE('',*,*,#139,.F.);
#91=ORIENTED_EDGE('',*,*,#137,.F.);
#92=ORIENTED_EDGE('',*,*,#117,.T.);
#93=ORIENTED_EDGE('',*,*,#121,.T.);
#94=ORIENTED_EDGE('',*,*,#124,.T.);
#95=ORIENTED_EDGE('',*,*,#127,.T.);
#96=ORIENTED_EDGE('',*,*,#130,.T.);
#97=ORIENTED_EDGE('',*,*,#133,.T.);
#98=ORIENTED_EDGE('',*,*,#136,.T.);
#99=ORIENTED_EDGE('',*,*,#146,.T.);
#100=ORIENTED_EDGE('',*,*,#144,.T.);
#101=ORIENTED_EDGE('',*,*,#142,.T.);
#102=ORIENTED_EDGE('',*,*,#140,.T.);
#103=ORIENTED_EDGE('',*,*,#138,.T.);
#104=ORIENTED_EDGE('',*,*,#115,.F.);
#105=ORIENTED_EDGE('',*,*,#145,.F.);
#106=ORIENTED_EDGE('',*,*,#134,.F.);
#107=ORIENTED_EDGE('',*,*,#131,.F.);
#108=ORIENTED_EDGE('',*,*,#128,.F.);
#109=ORIENTED_EDGE('',*,*,#125,.F.);
#110=ORIENTED_EDGE('',*,*,#122,.F.);
#111=ORIENTED_EDGE('',*,*,#119,.F.);
#112=ORIENTED_EDGE('',*,*,#148,.T.);
#113=ORIENTED_EDGE('',*,*,#147,.T.);
#114=ORIENTED_EDGE('',*,*,#148,.F.);
#115=EDGE_CURVE('',#149,#150,#175,.T.);
#116=EDGE_CURVE('',#151,#150,#176,.T.);
#117=EDGE_CURVE('',#152,#151,#177,.T.);
#118=EDGE_CURVE('',#152,#149,#178,.T.);
#119=EDGE_CURVE('',#150,#153,#20,.T.);
#120=EDGE_CURVE('',#154,#153,#179,.T.);
#121=EDGE_CURVE('',#151,#154,#21,.T.);
#122=EDGE_CURVE('',#153,#155,#180,.T.);
#123=EDGE_CURVE('',#156,#155,#181,.T.);
#124=EDGE_CURVE('',#154,#156,#182,.T.);
#125=EDGE_CURVE('',#155,#157,#22,.T.);
#126=EDGE_CURVE('',#158,#157,#183,.T.);
#127=EDGE_CURVE('',#156,#158,#23,.T.);
#128=EDGE_CURVE('',#157,#159,#184,.T.);
#129=EDGE_CURVE('',#160,#159,#185,.T.);
#130=EDGE_CURVE('',#158,#160,#186,.T.);
#131=EDGE_CURVE('',#159,#161,#24,.T.);
#132=EDGE_CURVE('',#162,#161,#187,.T.);
#133=EDGE_CURVE('',#160,#162,#25,.T.);
#134=EDGE_CURVE('',#161,#163,#188,.T.);
#135=EDGE_CURVE('',#164,#163,#189,.T.);
#136=EDGE_CURVE('',#162,#164,#190,.T.);
#137=EDGE_CURVE('',#165,#165,#26,.T.);
#138=EDGE_CURVE('',#166,#166,#27,.T.);
#139=EDGE_CURVE('',#167,#167,#28,.T.);
#140=EDGE_CURVE('',#168,#168,#29,.T.);
#141=EDGE_CURVE('',#169,#169,#30,.T.);
#142=EDGE_CURVE('',#170,#170,#31,.T.);
#143=EDGE_CURVE('',#171,#171,#32,.T.);
#144=EDGE_CURVE('',#172,#172,#33,.T.);
#145=EDGE_CURVE('',#163,#149,#34,.T.);
#146=EDGE_CURVE('',#164,#152,#35,.T.);
#147=EDGE_CURVE('',#173,#173,#36,.T.);
#148=EDGE_CURVE('',#174,#174,#37,.T.);
#149=VERTEX_POINT('',#426);
#150=VERTEX_POINT('',#427);
#151=VERTEX_POINT('',#429);
#152=VERTEX_POINT('',#431);
#153=VERTEX_POINT('',#435);
#154=VERTEX_POINT('',#437);
#155=VERTEX_POINT('',#441);
#156=VERTEX_POINT('',#443);
#157=VERTEX_POINT('',#447);
#158=VERTEX_POINT('',#449);
#159=VERTEX_POINT('',#453);
#160=VERTEX_POINT('',#455);
#161=VERTEX_POINT('',#459);
#162=VERTEX_POINT('',#461);
#163=VERTEX_POINT('',#465);
#164=VERTEX_POINT('',#467);
#165=VERTEX_POINT('',#471);
#166=VERTEX_POINT('',#473);
#167=VERTEX_POINT('',#476);
#168=VERTEX_POINT('',#478);
#169=VERTEX_POINT('',#481);
#170=VERTEX_POINT('',#483);
#171=VERTEX_POINT('',#486);
#172=VERTEX_POINT('',#488);
#173=VERTEX_POINT('',#494);
#174=VERTEX_POINT('',#498);
#175=LINE('',#425,#191);
#176=LINE('',#428,#192);
#177=LINE('',#430,#193);
#178=LINE('',#432,#194);
#179=LINE('',#436,#195);
#180=LINE('',#440,#196);
#181=LINE('',#442,#197);
#182=LINE('',#444,#198);
#183=LINE('',#448,#199);
#184=LINE('',#452,#200);
#185=LINE('',#454,#201);
#186=LINE('',#456,#202);
#187=LINE('',#460,#203);
#188=LINE('',#464,#204);
#189=LINE('',#466,#205);
#190=LINE('',#468,#206);
#191=VECTOR('',#341,1000.);
#192=VECTOR('',#342,1000.);
#193=VECTOR('',#343,1000.);
#194=VECTOR('',#344,1000.);
#195=VECTOR('',#349,1000.);
#196=VECTOR('',#354,1000.);
#197=VECTOR('',#355,1000.);
#198=VECTOR('',#356,1000.);
#199=VECTOR('',#361,1000.);
#200=VECTOR('',#366,1000.);
#201=VECTOR('',#367,1000.);
#202=VECTOR('',#368,1000.);
#203=VECTOR('',#373,1000.);
#204=VECTOR('',#378,1000.);
#205=VECTOR('',#379,1000.);
#206=VECTOR('',#380,1000.);
#207=EDGE_LOOP('',(#47,#48,#49,#50));
#208=EDGE_LOOP('',(#51,#52,#53,#54));
#209=EDGE_LOOP('',(#55,#56,#57,#58));
#210=EDGE_LOOP('',(#59,#60,#61,#62));
#211=EDGE_LOOP('',(#63,#64,#65,#66));
#212=EDGE_LOOP('',(#67,#68,#69,#70));
#213=EDGE_LOOP('',(#71,#72,#73,#74));
#214=EDGE_LOOP('',(#75));
#215=EDGE_LOOP('',(#76));
#216=EDGE_LOOP('',(#77));
#217=EDGE_LOOP('',(#78));
#218=EDGE_LOOP('',(#79));
#219=EDGE_LOOP('',(#80));
#220=EDGE_LOOP('',(#81));
#221=EDGE_LOOP('',(#82));
#222=EDGE_LOOP('',(#83,#84,#85,#86));
#223=EDGE_LOOP('',(#87));
#224=EDGE_LOOP('',(#88));
#225=EDGE_LOOP('',(#89));
#226=EDGE_LOOP('',(#90));
#227=EDGE_LOOP('',(#91));
#228=EDGE_LOOP('',(#92,#93,#94,#95,#96,#97,#98,#99));
#229=EDGE_LOOP('',(#100));
#230=EDGE_LOOP('',(#101));
#231=EDGE_LOOP('',(#102));
#232=EDGE_LOOP('',(#103));
#233=EDGE_LOOP('',(#104,#105,#106,#107,#108,#109,#110,#111));
#234=EDGE_LOOP('',(#112));
#235=EDGE_LOOP('',(#113));
#236=EDGE_LOOP('',(#114));
#237=FACE_BOUND('',#207,.T.);
#238=FACE_BOUND('',#208,.T.);
#239=FACE_BOUND('',#209,.T.);
#240=FACE_BOUND('',#210,.T.);
#241=FACE_BOUND('',#211,.T.);
#242=FACE_BOUND('',#212,.T.);
#243=FACE_BOUND('',#213,.T.);
#244=FACE_BOUND('',#214,.T.);
#245=FACE_BOUND('',#215,.T.);
#246=FACE_BOUND('',#216,.T.);
#247=FACE_BOUND('',#217,.T.);
#248=FACE_BOUND('',#218,.T.);
#249=FACE_BOUND('',#219,.T.);
#250=FACE_BOUND('',#220,.T.);
#251=FACE_BOUND('',#221,.T.);
#252=FACE_BOUND('',#222,.T.);
#253=FACE_BOUND('',#223,.T.);
#254=FACE_BOUND('',#224,.T.);
#255=FACE_BOUND('',#225,.T.);
#256=FACE_BOUND('',#226,.T.);
#257=FACE_BOUND('',#227,.T.);
#258=FACE_BOUND('',#228,.T.);
#259=FACE_BOUND('',#229,.T.);
#260=FACE_BOUND('',#230,.T.);
#261=FACE_BOUND('',#231,.T.);
#262=FACE_BOUND('',#232,.T.);
#263=FACE_BOUND('',#233,.T.);
#264=FACE_BOUND('',#234,.T.);
#265=FACE_BOUND('',#235,.T.);
#266=FACE_BOUND('',#236,.T.);
#267=PLANE('',#303);
#268=PLANE('',#307);
#269=PLANE('',#311);
#270=PLANE('',#315);
#271=PLANE('',#331);
#272=PLANE('',#333);
#273=PLANE('',#334);
#274=ADVANCED_FACE('',(#237),#267,.F.);
#275=ADVANCED_FACE('',(#238),#38,.T.);
#276=ADVANCED_FACE('',(#239),#268,.F.);
#277=ADVANCED_FACE('',(#240),#39,.T.);
#278=ADVANCED_FACE('',(#241),#269,.F.);
#279=ADVANCED_FACE('',(#242),#40,.T.);
#280=ADVANCED_FACE('',(#243),#270,.F.);
#281=ADVANCED_FACE('',(#244,#245),#41,.F.);
#282=ADVANCED_FACE('',(#246,#247),#42,.F.);
#283=ADVANCED_FACE('',(#248,#249),#43,.F.);
#284=ADVANCED_FACE('',(#250,#251),#44,.F.);
#285=ADVANCED_FACE('',(#252),#45,.T.);
#286=ADVANCED_FACE('',(#253,#254,#255,#256,#257,#258),#271,.T.);
#287=ADVANCED_FACE('',(#259,#260,#261,#262,#263),#272,.F.);
#288=ADVANCED_FACE('',(#264),#273,.T.);
#289=ADVANCED_FACE('',(#265,#266),#46,.F.);
#290=CLOSED_SHELL('',(#274,#275,#276,#277,#278,#279,#280,#281,#282,#283,
#284,#285,#286,#287,#288,#289));
#291=STYLED_ITEM('',(#292),#299);
#292=PRESENTATION_STYLE_ASSIGNMENT((#293));
#293=SURFACE_STYLE_USAGE(.BOTH.,#294);
#294=SURFACE_SIDE_STYLE('',(#295));
#295=SURFACE_STYLE_FILL_AREA(#296);
#296=FILL_AREA_STYLE('',(#297));
#297=FILL_AREA_STYLE_COLOUR('',#298);
#298=COLOUR_RGB('',0.689999997615814,0.689999997615814,0.689999997615814);
#299=MANIFOLD_SOLID_BREP('2GN10XS_Midgear',#290);
#300=SHAPE_DEFINITION_REPRESENTATION(#506,#301);
#301=SHAPE_REPRESENTATION('2GN10XS_Midgear',(#302),#501);
#302=AXIS2_PLACEMENT_3D('',#423,#337,#338);
#303=AXIS2_PLACEMENT_3D('',#424,#339,#340);
#304=AXIS2_PLACEMENT_3D('',#433,#345,#346);
#305=AXIS2_PLACEMENT_3D('',#434,#347,#348);
#306=AXIS2_PLACEMENT_3D('',#438,#350,#351);
#307=AXIS2_PLACEMENT_3D('',#439,#352,#353);
#308=AXIS2_PLACEMENT_3D('',#445,#357,#358);
#309=AXIS2_PLACEMENT_3D('',#446,#359,#360);
#310=AXIS2_PLACEMENT_3D('',#450,#362,#363);
#311=AXIS2_PLACEMENT_3D('',#451,#364,#365);
#312=AXIS2_PLACEMENT_3D('',#457,#369,#370);
#313=AXIS2_PLACEMENT_3D('',#458,#371,#372);
#314=AXIS2_PLACEMENT_3D('',#462,#374,#375);
#315=AXIS2_PLACEMENT_3D('',#463,#376,#377);
#316=AXIS2_PLACEMENT_3D('',#469,#381,#382);
#317=AXIS2_PLACEMENT_3D('',#470,#383,#384);
#318=AXIS2_PLACEMENT_3D('',#472,#385,#386);
#319=AXIS2_PLACEMENT_3D('',#474,#387,#388);
#320=AXIS2_PLACEMENT_3D('',#475,#389,#390);
#321=AXIS2_PLACEMENT_3D('',#477,#391,#392);
#322=AXIS2_PLACEMENT_3D('',#479,#393,#394);
#323=AXIS2_PLACEMENT_3D('',#480,#395,#396);
#324=AXIS2_PLACEMENT_3D('',#482,#397,#398);
#325=AXIS2_PLACEMENT_3D('',#484,#399,#400);
#326=AXIS2_PLACEMENT_3D('',#485,#401,#402);
#327=AXIS2_PLACEMENT_3D('',#487,#403,#404);
#328=AXIS2_PLACEMENT_3D('',#489,#405,#406);
#329=AXIS2_PLACEMENT_3D('',#490,#407,#408);
#330=AXIS2_PLACEMENT_3D('',#491,#409,#410);
#331=AXIS2_PLACEMENT_3D('',#492,#411,#412);
#332=AXIS2_PLACEMENT_3D('',#493,#413,#414);
#333=AXIS2_PLACEMENT_3D('',#495,#415,#416);
#334=AXIS2_PLACEMENT_3D('',#496,#417,#418);
#335=AXIS2_PLACEMENT_3D('',#497,#419,#420);
#336=AXIS2_PLACEMENT_3D('',#499,#421,#422);
#337=DIRECTION('',(0.,0.,1.));
#338=DIRECTION('',(1.,0.,0.));
#339=DIRECTION('',(0.,0.,-1.));
#340=DIRECTION('',(-1.,0.,0.));
#341=DIRECTION('',(0.,-1.,0.));
#342=DIRECTION('',(-1.,0.,0.));
#343=DIRECTION('',(0.,-1.,0.));
#344=DIRECTION('',(-1.,0.,0.));
#345=DIRECTION('',(-1.,0.,0.));
#346=DIRECTION('',(0.,0.,1.));
#347=DIRECTION('',(1.,0.,0.));
#348=DIRECTION('',(0.,0.,-1.));
#349=DIRECTION('',(-1.,0.,0.));
#350=DIRECTION('',(1.,0.,0.));
#351=DIRECTION('',(0.,0.,-1.));
#352=DIRECTION('',(0.,1.,0.));
#353=DIRECTION('',(0.,0.,1.));
#354=DIRECTION('',(0.,0.,-1.));
#355=DIRECTION('',(-1.,0.,0.));
#356=DIRECTION('',(0.,0.,-1.));
#357=DIRECTION('',(-1.,0.,0.));
#358=DIRECTION('',(0.,0.,1.));
#359=DIRECTION('',(1.,0.,0.));
#360=DIRECTION('',(0.,0.,-1.));
#361=DIRECTION('',(-1.,0.,0.));
#362=DIRECTION('',(1.,0.,0.));
#363=DIRECTION('',(0.,0.,-1.));
#364=DIRECTION('',(0.,0.,1.));
#365=DIRECTION('',(1.,0.,0.));
#366=DIRECTION('',(0.,1.,0.));
#367=DIRECTION('',(-1.,0.,0.));
#368=DIRECTION('',(0.,1.,0.));
#369=DIRECTION('',(-1.,0.,0.));
#370=DIRECTION('',(0.,0.,1.));
#371=DIRECTION('',(1.,0.,0.));
#372=DIRECTION('',(0.,0.,-1.));
#373=DIRECTION('',(-1.,0.,0.));
#374=DIRECTION('',(1.,0.,0.));
#375=DIRECTION('',(0.,0.,-1.));
#376=DIRECTION('',(0.,-1.,0.));
#377=DIRECTION('',(0.,0.,-1.));
#378=DIRECTION('',(0.,0.,1.));
#379=DIRECTION('',(-1.,0.,0.));
#380=DIRECTION('',(0.,0.,1.));
#381=DIRECTION('',(-1.,0.,0.));
#382=DIRECTION('',(0.,0.,1.));
#383=DIRECTION('',(1.,0.,0.));
#384=DIRECTION('',(0.,0.,-1.));
#385=DIRECTION('',(1.,0.,0.));
#386=DIRECTION('',(0.,0.,-1.));
#387=DIRECTION('',(-1.,0.,0.));
#388=DIRECTION('',(0.,0.,1.));
#389=DIRECTION('',(1.,0.,0.));
#390=DIRECTION('',(0.,0.,-1.));
#391=DIRECTION('',(1.,0.,0.));
#392=DIRECTION('',(0.,0.,-1.));
#393=DIRECTION('',(-1.,0.,0.));
#394=DIRECTION('',(0.,0.,1.));
#395=DIRECTION('',(1.,0.,0.));
#396=DIRECTION('',(0.,0.,-1.));
#397=DIRECTION('',(1.,0.,0.));
#398=DIRECTION('',(0.,0.,-1.));
#399=DIRECTION('',(-1.,0.,0.));
#400=DIRECTION('',(0.,0.,1.));
#401=DIRECTION('',(1.,0.,0.));
#402=DIRECTION('',(0.,0.,-1.));
#403=DIRECTION('',(1.,0.,0.));
#404=DIRECTION('',(0.,0.,-1.));
#405=DIRECTION('',(-1.,0.,0.));
#406=DIRECTION('',(0.,0.,1.));
#407=DIRECTION('',(1.,0.,0.));
#408=DIRECTION('',(0.,0.,-1.));
#409=DIRECTION('',(1.,0.,0.));
#410=DIRECTION('',(0.,0.,-1.));
#411=DIRECTION('',(1.,0.,0.));
#412=DIRECTION('',(0.,0.,-1.));
#413=DIRECTION('',(1.,0.,0.));
#414=DIRECTION('',(0.,0.,-1.));
#415=DIRECTION('',(1.,0.,0.));
#416=DIRECTION('',(0.,0.,-1.));
#417=DIRECTION('',(1.,0.,0.));
#418=DIRECTION('',(0.,0.,-1.));
#419=DIRECTION('',(1.,0.,0.));
#420=DIRECTION('',(0.,0.,-1.));
#421=DIRECTION('',(1.,0.,0.));
#422=DIRECTION('',(0.,0.,-1.));
#423=CARTESIAN_POINT('',(0.,0.,0.));
#424=CARTESIAN_POINT('',(26.,24.3,30.));
#425=CARTESIAN_POINT('',(0.,24.3,30.));
#426=CARTESIAN_POINT('',(0.,24.3,30.));
#427=CARTESIAN_POINT('',(0.,-24.3,30.));
#428=CARTESIAN_POINT('',(26.,-24.3,30.));
#429=CARTESIAN_POINT('',(26.,-24.3,30.));
#430=CARTESIAN_POINT('',(26.,24.3,30.));
#431=CARTESIAN_POINT('',(26.,24.3,30.));
#432=CARTESIAN_POINT('',(26.,24.3,30.));
#433=CARTESIAN_POINT('',(26.,-24.3,24.3));
#434=CARTESIAN_POINT('',(0.,-24.3,24.3));
#435=CARTESIAN_POINT('',(0.,-30.,24.3));
#436=CARTESIAN_POINT('',(26.,-30.,24.3));
#437=CARTESIAN_POINT('',(26.,-30.,24.3));
#438=CARTESIAN_POINT('',(26.,-24.3,24.3));
#439=CARTESIAN_POINT('',(26.,-30.,24.3));
#440=CARTESIAN_POINT('',(0.,-30.,24.3));
#441=CARTESIAN_POINT('',(0.,-30.,-24.3));
#442=CARTESIAN_POINT('',(26.,-30.,-24.3));
#443=CARTESIAN_POINT('',(26.,-30.,-24.3));
#444=CARTESIAN_POINT('',(26.,-30.,24.3));
#445=CARTESIAN_POINT('',(26.,-24.3,-24.3));
#446=CARTESIAN_POINT('',(0.,-24.3,-24.3));
#447=CARTESIAN_POINT('',(0.,-24.3,-30.));
#448=CARTESIAN_POINT('',(26.,-24.3,-30.));
#449=CARTESIAN_POINT('',(26.,-24.3,-30.));
#450=CARTESIAN_POINT('',(26.,-24.3,-24.3));
#451=CARTESIAN_POINT('',(26.,-24.3,-30.));
#452=CARTESIAN_POINT('',(0.,-24.3,-30.));
#453=CARTESIAN_POINT('',(0.,24.3,-30.));
#454=CARTESIAN_POINT('',(26.,24.3,-30.));
#455=CARTESIAN_POINT('',(26.,24.3,-30.));
#456=CARTESIAN_POINT('',(26.,-24.3,-30.));
#457=CARTESIAN_POINT('',(26.,24.3,-24.3));
#458=CARTESIAN_POINT('',(0.,24.3,-24.3));
#459=CARTESIAN_POINT('',(0.,30.,-24.3));
#460=CARTESIAN_POINT('',(26.,30.,-24.3));
#461=CARTESIAN_POINT('',(26.,30.,-24.3));
#462=CARTESIAN_POINT('',(26.,24.3,-24.3));
#463=CARTESIAN_POINT('',(26.,30.,-24.3));
#464=CARTESIAN_POINT('',(0.,30.,-24.3));
#465=CARTESIAN_POINT('',(0.,30.,24.3));
#466=CARTESIAN_POINT('',(26.,30.,24.3));
#467=CARTESIAN_POINT('',(26.,30.,24.3));
#468=CARTESIAN_POINT('',(26.,30.,-24.3));
#469=CARTESIAN_POINT('',(26.,-24.7487373415292,-24.7487373415292));
#470=CARTESIAN_POINT('',(26.,-24.7487373415292,-24.7487373415292));
#471=CARTESIAN_POINT('',(26.,-24.7487373415292,-26.9987373415292));
#472=CARTESIAN_POINT('',(0.,-24.7487373415292,-24.7487373415292));
#473=CARTESIAN_POINT('',(0.,-24.7487373415292,-26.9987373415292));
#474=CARTESIAN_POINT('',(26.,24.7487373415292,-24.7487373415292));
#475=CARTESIAN_POINT('',(26.,24.7487373415292,-24.7487373415292));
#476=CARTESIAN_POINT('',(26.,24.7487373415292,-26.9987373415292));
#477=CARTESIAN_POINT('',(0.,24.7487373415292,-24.7487373415292));
#478=CARTESIAN_POINT('',(0.,24.7487373415292,-26.9987373415292));
#479=CARTESIAN_POINT('',(26.,24.7487373415292,24.7487373415292));
#480=CARTESIAN_POINT('',(26.,24.7487373415292,24.7487373415292));
#481=CARTESIAN_POINT('',(26.,24.7487373415292,22.4987373415292));
#482=CARTESIAN_POINT('',(0.,24.7487373415292,24.7487373415292));
#483=CARTESIAN_POINT('',(0.,24.7487373415292,22.4987373415292));
#484=CARTESIAN_POINT('',(26.,-24.7487373415292,24.7487373415292));
#485=CARTESIAN_POINT('',(26.,-24.7487373415292,24.7487373415292));
#486=CARTESIAN_POINT('',(26.,-24.7487373415292,22.4987373415292));
#487=CARTESIAN_POINT('',(0.,-24.7487373415292,24.7487373415292));
#488=CARTESIAN_POINT('',(0.,-24.7487373415292,22.4987373415292));
#489=CARTESIAN_POINT('',(26.,24.3,24.3));
#490=CARTESIAN_POINT('',(0.,24.3,24.3));
#491=CARTESIAN_POINT('',(26.,24.3,24.3));
#492=CARTESIAN_POINT('',(26.,-24.3,24.3));
#493=CARTESIAN_POINT('',(26.,0.,0.));
#494=CARTESIAN_POINT('',(26.,0.,-27.));
#495=CARTESIAN_POINT('',(0.,-24.3,24.3));
#496=CARTESIAN_POINT('',(24.,0.,0.));
#497=CARTESIAN_POINT('',(24.,0.,0.));
#498=CARTESIAN_POINT('',(24.,0.,-27.));
#499=CARTESIAN_POINT('',(26.,0.,0.));
#500=MECHANICAL_DESIGN_GEOMETRIC_PRESENTATION_REPRESENTATION('',(#291),
#501);
#501=(
GEOMETRIC_REPRESENTATION_CONTEXT(3)
GLOBAL_UNCERTAINTY_ASSIGNED_CONTEXT((#502))
GLOBAL_UNIT_ASSIGNED_CONTEXT((#505,#504,#503))
REPRESENTATION_CONTEXT('2GN10XS_Midgear','TOP_LEVEL_ASSEMBLY_PART')
);
#502=UNCERTAINTY_MEASURE_WITH_UNIT(LENGTH_MEASURE(0.005),#505,
'DISTANCE_ACCURACY_VALUE','Maximum Tolerance applied to model');
#503=(
NAMED_UNIT(*)
SI_UNIT($,.STERADIAN.)
SOLID_ANGLE_UNIT()
);
#504=(
NAMED_UNIT(*)
PLANE_ANGLE_UNIT()
SI_UNIT($,.RADIAN.)
);
#505=(
LENGTH_UNIT()
NAMED_UNIT(*)
SI_UNIT(.MILLI.,.METRE.)
);
#506=PRODUCT_DEFINITION_SHAPE('','',#507);
#507=PRODUCT_DEFINITION('','',#509,#508);
#508=PRODUCT_DEFINITION_CONTEXT('',#515,'design');
#509=PRODUCT_DEFINITION_FORMATION_WITH_SPECIFIED_SOURCE('','',#511,
 .NOT_KNOWN.);
#510=PRODUCT_RELATED_PRODUCT_CATEGORY('','',(#511));
#511=PRODUCT('2GN10XS_Midgear','2GN10XS_Midgear','2GN10XS_Midgear',(#513));
#512=PRODUCT_CATEGORY('','');
#513=PRODUCT_CONTEXT('',#515,'mechanical');
#514=APPLICATION_PROTOCOL_DEFINITION('international standard',
'automotive_design',2010,#515);
#515=APPLICATION_CONTEXT(
'core data for automotive mechanical design processes');
ENDSEC;
END-ISO-10303-21;
